  0
SECTION
  2
HEADER
  9
$ACADVER
  1
AC1015
  9
$ACADMAINTVER
 70
     6
  9
$DWGCODEPAGE
  3
ANSI_1254
  9
$INSBASE
 10
0.0
 20
0.0
 30
0.0
  9
$EXTMIN
 10
0.0
 20
0.0
 30
0.0
  9
$EXTMAX
 10
279.4
 20
215.9
 30
0.0
  9
$LIMMIN
 10
0.0
 20
0.0
  9
$LIMMAX
 10
279.4
 20
215.9
  9
$ORTHOMODE
 70
     0
  9
$REGENMODE
 70
     1
  9
$FILLMODE
 70
     1
  9
$QTEXTMODE
 70
     0
  9
$MIRRTEXT
 70
     1
  9
$LTSCALE
 40
1.0
  9
$ATTMODE
 70
     1
  9
$TEXTSIZE
 40
3.5
  9
$TRACEWID
 40
1.0
  9
$TEXTSTYLE
  7
Standard
  9
$CLAYER
  8
0
  9
$CELTYPE
  6
ByLayer
  9
$CECOLOR
 62
   256
  9
$CELTSCALE
 40
1.0
  9
$DISPSILH
 70
     0
  9
$DIMSCALE
 40
1.0
  9
$DIMASZ
 40
3.5
  9
$DIMEXO
 40
1.0
  9
$DIMDLI
 40
3.75
  9
$DIMRND
 40
0.0
  9
$DIMDLE
 40
0.0
  9
$DIMEXE
 40
1.0
  9
$DIMTP
 40
0.0
  9
$DIMTM
 40
0.0
  9
$DIMTXT
 40
3.5
  9
$DIMCEN
 40
2.5
  9
$DIMTSZ
 40
0.0
  9
$DIMTOL
 70
     0
  9
$DIMLIM
 70
     0
  9
$DIMTIH
 70
     1
  9
$DIMTOH
 70
     1
  9
$DIMSE1
 70
     0
  9
$DIMSE2
 70
     0
  9
$DIMTAD
 70
     1
  9
$DIMZIN
 70
     0
  9
$DIMBLK
  1

  9
$DIMASO
 70
     1
  9
$DIMSHO
 70
     1
  9
$DIMPOST
  1

  9
$DIMAPOST
  1

  9
$DIMALT
 70
     0
  9
$DIMALTD
 70
     3
  9
$DIMALTF
 40
0.0393700787
  9
$DIMLFAC
 40
1.0
  9
$DIMTOFL
 70
     1
  9
$DIMTVP
 40
0.0
  9
$DIMTIX
 70
     0
  9
$DIMSOXD
 70
     0
  9
$DIMSAH
 70
     0
  9
$DIMBLK1
  1

  9
$DIMBLK2
  1

  9
$DIMSTYLE
  2
ISO-25
  9
$DIMCLRD
 70
     0
  9
$DIMCLRE
 70
     0
  9
$DIMCLRT
 70
     0
  9
$DIMTFAC
 40
1.0
  9
$DIMGAP
 40
1.524
  9
$DIMJUST
 70
     0
  9
$DIMSD1
 70
     0
  9
$DIMSD2
 70
     0
  9
$DIMTOLJ
 70
     0
  9
$DIMTZIN
 70
     0
  9
$DIMALTZ
 70
     0
  9
$DIMALTTZ
 70
     0
  9
$DIMUPT
 70
     0
  9
$DIMDEC
 70
     2
  9
$DIMTDEC
 70
     2
  9
$DIMALTU
 70
     2
  9
$DIMALTTD
 70
     3
  9
$DIMTXSTY
  7
Standard
  9
$DIMAUNIT
 70
     0
  9
$DIMADEC
 70
     2
  9
$DIMALTRND
 40
0.0
  9
$DIMAZIN
 70
     0
  9
$DIMDSEP
 70
    44
  9
$DIMATFIT
 70
     3
  9
$DIMFRAC
 70
     0
  9
$DIMLDRBLK
  1

  9
$DIMLUNIT
 70
     2
  9
$DIMLWD
 70
    -2
  9
$DIMLWE
 70
    -2
  9
$DIMTMOVE
 70
     0
  9
$LUNITS
 70
     2
  9
$LUPREC
 70
     2
  9
$SKETCHINC
 40
1.0
  9
$FILLETRAD
 40
10.0
  9
$AUNITS
 70
     0
  9
$AUPREC
 70
     2
  9
$MENU
  1
.
  9
$ELEVATION
 40
0.0
  9
$PELEVATION
 40
0.0
  9
$THICKNESS
 40
0.0
  9
$LIMCHECK
 70
     0
  9
$CHAMFERA
 40
0.0
  9
$CHAMFERB
 40
0.0
  9
$CHAMFERC
 40
0.0
  9
$CHAMFERD
 40
0.0
  9
$SKPOLY
 70
     0
  9
$TDCREATE
 40
2458985.706324039
  9
$TDUCREATE
 40
2458985.581324039
  9
$TDUPDATE
 40
2458985.706324386
  9
$TDUUPDATE
 40
2458985.581324386
  9
$TDINDWG
 40
0.0000000116
  9
$TDUSRTIMER
 40
0.0000000116
  9
$USRTIMER
 70
     1
  9
$ANGBASE
 50
0.0
  9
$ANGDIR
 70
     0
  9
$PDMODE
 70
     0
  9
$PDSIZE
 40
-1.0
  9
$PLINEWID
 40
0.0
  9
$SPLFRAME
 70
     0
  9
$SPLINETYPE
 70
     6
  9
$SPLINESEGS
 70
     8
  9
$HANDSEED
  5
F1
  9
$SURFTAB1
 70
     6
  9
$SURFTAB2
 70
     6
  9
$SURFTYPE
 70
     6
  9
$SURFU
 70
     6
  9
$SURFV
 70
     6
  9
$UCSBASE
  2

  9
$UCSNAME
  2

  9
$UCSORG
 10
0.0
 20
0.0
 30
0.0
  9
$UCSXDIR
 10
1.0
 20
0.0
 30
0.0
  9
$UCSYDIR
 10
0.0
 20
1.0
 30
0.0
  9
$UCSORTHOREF
  2

  9
$UCSORTHOVIEW
 70
     0
  9
$UCSORGTOP
 10
0.0
 20
0.0
 30
0.0
  9
$UCSORGBOTTOM
 10
0.0
 20
0.0
 30
0.0
  9
$UCSORGLEFT
 10
0.0
 20
0.0
 30
0.0
  9
$UCSORGRIGHT
 10
0.0
 20
0.0
 30
0.0
  9
$UCSORGFRONT
 10
0.0
 20
0.0
 30
0.0
  9
$UCSORGBACK
 10
0.0
 20
0.0
 30
0.0
  9
$PUCSBASE
  2

  9
$PUCSNAME
  2

  9
$PUCSORG
 10
0.0
 20
0.0
 30
0.0
  9
$PUCSXDIR
 10
1.0
 20
0.0
 30
0.0
  9
$PUCSYDIR
 10
0.0
 20
1.0
 30
0.0
  9
$PUCSORTHOREF
  2

  9
$PUCSORTHOVIEW
 70
     0
  9
$PUCSORGTOP
 10
0.0
 20
0.0
 30
0.0
  9
$PUCSORGBOTTOM
 10
0.0
 20
0.0
 30
0.0
  9
$PUCSORGLEFT
 10
0.0
 20
0.0
 30
0.0
  9
$PUCSORGRIGHT
 10
0.0
 20
0.0
 30
0.0
  9
$PUCSORGFRONT
 10
0.0
 20
0.0
 30
0.0
  9
$PUCSORGBACK
 10
0.0
 20
0.0
 30
0.0
  9
$USERI1
 70
     0
  9
$USERI2
 70
     0
  9
$USERI3
 70
     0
  9
$USERI4
 70
     0
  9
$USERI5
 70
     0
  9
$USERR1
 40
0.0
  9
$USERR2
 40
0.0
  9
$USERR3
 40
0.0
  9
$USERR4
 40
0.0
  9
$USERR5
 40
0.0
  9
$WORLDVIEW
 70
     1
  9
$SHADEDGE
 70
     3
  9
$SHADEDIF
 70
    70
  9
$TILEMODE
 70
     1
  9
$MAXACTVP
 70
    64
  9
$PINSBASE
 10
0.0
 20
0.0
 30
0.0
  9
$PLIMCHECK
 70
     0
  9
$PEXTMIN
 10
1.0000000000E+20
 20
1.0000000000E+20
 30
1.0000000000E+20
  9
$PEXTMAX
 10
-1.0000000000E+20
 20
-1.0000000000E+20
 30
-1.0000000000E+20
  9
$PLIMMIN
 10
0.0
 20
0.0
  9
$PLIMMAX
 10
420.0
 20
297.0
  9
$UNITMODE
 70
     0
  9
$VISRETAIN
 70
     1
  9
$PLINEGEN
 70
     0
  9
$PSLTSCALE
 70
     1
  9
$TREEDEPTH
 70
  3020
  9
$CMLSTYLE
  2
Standard
  9
$CMLJUST
 70
     0
  9
$CMLSCALE
 40
20.0
  9
$PROXYGRAPHICS
 70
     1
  9
$MEASUREMENT
 70
     1
  9
$CELWEIGHT
370
    -1
  9
$ENDCAPS
280
     0
  9
$JOINSTYLE
280
     0
  9
$LWDISPLAY
290
     1
  9
$INSUNITS
 70
     4
  9
$HYPERLINKBASE
  1

  9
$STYLESHEET
  1

  9
$XEDIT
290
     1
  9
$CEPSNTYPE
380
     0
  9
$PSTYLEMODE
290
     1
  9
$FINGERPRINTGUID
  2
{8c88dd97-7800-4160-837d-84d7b06f2422}
  9
$VERSIONGUID
  2
{FAEB1C32-E019-11D5-929B-00C0DF256EC4}
  9
$EXTNAMES
290
     1
  9
$PSVPSCALE
 40
0.0
  9
$OLESTARTUP
290
     0
  0
ENDSEC
  0
SECTION
  2
CLASSES
  0
CLASS
  1
ACDBDICTIONARYWDFLT
  2
AcDbDictionaryWithDefault
  3
ObjectDBX Classes
 90
        0
280
     0
281
     0
  0
CLASS
  1
VISUALSTYLE
  2
AcDbVisualStyle
  3
ObjectDBX Classes
 90
     4095
280
     0
281
     0
  0
CLASS
  1
MATERIAL
  2
AcDbMaterial
  3
ObjectDBX Classes
 90
     1153
280
     0
281
     0
  0
CLASS
  1
SCALE
  2
AcDbScale
  3
ObjectDBX Classes
 90
     1153
280
     0
281
     0
  0
CLASS
  1
TABLESTYLE
  2
AcDbTableStyle
  3
ObjectDBX Classes
 90
     4095
280
     0
281
     0
  0
CLASS
  1
MLEADERSTYLE
  2
AcDbMLeaderStyle
  3
ACDB_MLEADERSTYLE_CLASS
 90
     4095
280
     0
281
     0
  0
CLASS
  1
SUN
  2
AcDbSun
  3
SCENEOE
 90
     1153
280
     0
281
     0
  0
CLASS
  1
ACDBPLACEHOLDER
  2
AcDbPlaceHolder
  3
ObjectDBX Classes
 90
        0
280
     0
281
     0
  0
CLASS
  1
LAYOUT
  2
AcDbLayout
  3
ObjectDBX Classes
 90
        0
280
     0
281
     0
  0
ENDSEC
  0
SECTION
  2
TABLES
  0
TABLE
  2
VPORT
  5
8
330
0
100
AcDbSymbolTable
 70
     1
  0
VPORT
  5
29
330
8
100
AcDbSymbolTableRecord
100
AcDbViewportTableRecord
  2
*Active
 70
     0
 10
0.0
 20
0.0
 11
1.0
 21
1.0
 12
139.7
 22
107.95
 13
0.0
 23
0.0
 14
10.0
 24
10.0
 15
10.0
 25
10.0
 16
0.0
 26
0.0
 36
1.0
 17
0.0
 27
0.0
 37
0.0
 40
215.9
 41
1.2941176471
 42
50.0
 43
0.0
 44
0.0
 50
0.0
 51
0.0
 71
     0
 72
  2000
 73
     1
 74
     3
 75
     0
 76
     0
 77
     0
 78
     0
281
     0
 65
     1
110
0.0
120
0.0
130
0.0
111
1.0
121
0.0
131
0.0
112
0.0
122
1.0
132
0.0
 79
     0
146
0.0
  0
ENDTAB
  0
TABLE
  2
LTYPE
  5
5
330
0
100
AcDbSymbolTable
 70
     6
  0
LTYPE
  5
14
330
5
100
AcDbSymbolTableRecord
100
AcDbLinetypeTableRecord
  2
ByBlock
 70
     0
  3

 72
    65
 73
     0
 40
0.0
  0
LTYPE
  5
15
330
5
100
AcDbSymbolTableRecord
100
AcDbLinetypeTableRecord
  2
ByLayer
 70
     0
  3

 72
    65
 73
     0
 40
0.0
  0
LTYPE
  5
16
330
5
100
AcDbSymbolTableRecord
100
AcDbLinetypeTableRecord
  2
Continuous
 70
     0
  3
Solid line
 72
    65
 73
     0
 40
0.0
  0
LTYPE
  5
6E
330
5
100
AcDbSymbolTableRecord
100
AcDbLinetypeTableRecord
  2
HIDDEN
 70
     0
  3
Hidden __ __ __ __ __ __ __ __ __ __ __ __ __ __
 72
    65
 73
     2
 40
1.905
 49
1.27
 74
     0
 49
-0.635
 74
     0
  0
LTYPE
  5
6F
330
5
100
AcDbSymbolTableRecord
100
AcDbLinetypeTableRecord
  2
PHANTOM
 70
     0
  3
Phantom ______  __  __  ______  __  __  ______
 72
    65
 73
     6
 40
12.7
 49
6.35
 74
     0
 49
-1.27
 74
     0
 49
1.27
 74
     0
 49
-1.27
 74
     0
 49
1.27
 74
     0
 49
-1.27
 74
     0
  0
LTYPE
  5
70
330
5
100
AcDbSymbolTableRecord
100
AcDbLinetypeTableRecord
  2
CENTER
 70
     0
  3
Center ____ _ ____ _ ____ _ ____ _ ____ _ ____
 72
    65
 73
     4
 40
10.16
 49
6.35
 74
     0
 49
-1.27
 74
     0
 49
1.27
 74
     0
 49
-1.27
 74
     0
  0
LTYPE
  5
71
330
5
100
AcDbSymbolTableRecord
100
AcDbLinetypeTableRecord
  2
CENTERX2
 70
     0
  3
Center (2x) ________  __  ________  __  _____
 72
    65
 73
     4
 40
20.32
 49
12.7
 74
     0
 49
-2.54
 74
     0
 49
2.54
 74
     0
 49
-2.54
 74
     0
  0
LTYPE
  5
72
330
5
100
AcDbSymbolTableRecord
100
AcDbLinetypeTableRecord
  2
DOT2
 70
     0
  3
Dot (.5x) ........................................
 72
    65
 73
     2
 40
0.635
 49
0.0
 74
     0
 49
-0.635
 74
     0
  0
ENDTAB
  0
TABLE
  2
LAYER
  5
2
330
0
100
AcDbSymbolTable
 70
    17
  0
LAYER
  5
10
330
2
100
AcDbSymbolTableRecord
100
AcDbLayerTableRecord
  2
0
 70
     0
 62
     7
  6
Continuous
370
    -3
390
F
  0
LAYER
  5
73
330
2
100
AcDbSymbolTableRecord
100
AcDbLayerTableRecord
  2
FORMAT
 70
     0
 62
     7
  6
Continuous
370
    -3
390
F
  0
LAYER
  5
74
330
2
100
AcDbSymbolTableRecord
100
AcDbLayerTableRecord
  2
YARDIMCI_GEOMETRI
 70
     0
 62
    -6
  6
Continuous
290
     0
370
    -3
390
F
  0
LAYER
  5
75
330
2
100
AcDbSymbolTableRecord
100
AcDbLayerTableRecord
  2
SAYFA_CERCEVESI
 70
     0
 62
     7
  6
Continuous
370
    25
390
F
  0
LAYER
  5
76
330
2
100
AcDbSymbolTableRecord
100
AcDbLayerTableRecord
  2
ANTET
 70
     0
 62
     7
  6
Continuous
370
    -3
390
F
  0
LAYER
  5
77
330
2
100
AcDbSymbolTableRecord
100
AcDbLayerTableRecord
  2
OLCU
 70
     0
 62
   150
  6
Continuous
370
    -3
390
F
  0
LAYER
  5
78
330
2
100
AcDbSymbolTableRecord
100
AcDbLayerTableRecord
  2
METIN
 70
     0
 62
    96
  6
Continuous
370
    -3
390
F
  0
LAYER
  5
79
330
2
100
AcDbSymbolTableRecord
100
AcDbLayerTableRecord
  2
BALON
 70
     0
 62
     5
  6
Continuous
370
    -3
390
F
  0
LAYER
  5
7A
330
2
100
AcDbSymbolTableRecord
100
AcDbLayerTableRecord
  2
VURGU
 70
     0
 62
     7
  6
Continuous
370
    -3
390
F
  0
LAYER
  5
7B
330
2
100
AcDbSymbolTableRecord
100
AcDbLayerTableRecord
  2
SILIK
 70
     0
 62
     7
  6
Continuous
370
    -3
390
F
  0
LAYER
  5
7C
330
2
100
AcDbSymbolTableRecord
100
AcDbLayerTableRecord
  2
MODEL
 70
     0
 62
     7
  6
Continuous
370
    -3
390
F
  0
LAYER
  5
7D
330
2
100
AcDbSymbolTableRecord
100
AcDbLayerTableRecord
  2
DETAYLANDıRMA
 70
     0
 62
   190
  6
Continuous
370
    -3
390
F
  0
LAYER
  5
7E
330
2
100
AcDbSymbolTableRecord
100
AcDbLayerTableRecord
  2
TOLERANS
 70
     0
 62
   230
  6
Continuous
370
    -3
390
F
  0
LAYER
  5
7F
330
2
100
AcDbSymbolTableRecord
100
AcDbLayerTableRecord
  2
MERKEZ_CIZGILERI
 70
     0
 62
    30
  6
Continuous
370
    -3
390
F
  0
LAYER
  5
80
330
2
100
AcDbSymbolTableRecord
100
AcDbLayerTableRecord
  2
KESIT-DETAY_CIZGILERI
 70
     0
 62
     7
  6
Continuous
370
    -3
390
F
  0
LAYER
  5
81
330
2
100
AcDbSymbolTableRecord
100
AcDbLayerTableRecord
  2
\U+041E\U+0421\U+0415\U+0412\U+042B\U+0415
 70
     0
 62
     7
  6
Continuous
370
    -3
390
F
  0
LAYER
  5
82
330
2
100
AcDbSymbolTableRecord
100
AcDbLayerTableRecord
  2
\U+0412\U+041E\U+0414\U+042F\U+041D\U+042B\U+0415_\U+0417\U+041D\U+0410\U+041A\U+0418
 70
     0
 62
    11
  6
Continuous
370
    -3
390
F
  0
ENDTAB
  0
TABLE
  2
STYLE
  5
3
330
0
100
AcDbSymbolTable
 70
     1
  0
STYLE
  5
11
330
3
100
AcDbSymbolTableRecord
100
AcDbTextStyleTableRecord
  2
Standard
 70
     0
 40
0.0
 41
1.0
 50
0.0
 71
     0
 42
3.5
  3
txt
  4

  0
ENDTAB
  0
TABLE
  2
VIEW
  5
6
330
0
100
AcDbSymbolTable
 70
     0
  0
ENDTAB
  0
TABLE
  2
UCS
  5
7
330
0
100
AcDbSymbolTable
 70
     0
  0
ENDTAB
  0
TABLE
  2
APPID
  5
9
330
0
100
AcDbSymbolTable
 70
     1
  0
APPID
  5
12
330
9
100
AcDbSymbolTableRecord
100
AcDbRegAppTableRecord
  2
ACAD
 70
     0
  0
ENDTAB
  0
TABLE
  2
DIMSTYLE
  5
A
330
0
100
AcDbSymbolTable
 70
     1
100
AcDbDimStyleTable
  0
DIMSTYLE
105
27
330
A
100
AcDbSymbolTableRecord
100
AcDbDimStyleTableRecord
  2
ISO-25
 70
     0
 41
2.5
 42
0.625
 43
3.75
 44
1.25
 73
     0
 74
     0
 77
     1
 78
     8
140
2.5
141
2.5
143
0.0393700787
147
0.625
171
     3
172
     1
178
     0
271
     2
272
     2
274
     3
278
    44
283
     0
284
     8
340
11
  0
ENDTAB
  0
TABLE
  2
BLOCK_RECORD
  5
1
330
0
100
AcDbSymbolTable
 70
     2
  0
BLOCK_RECORD
  5
1F
330
1
100
AcDbSymbolTableRecord
100
AcDbBlockTableRecord
  2
*Model_Space
340
22
  0
BLOCK_RECORD
  5
1B
330
1
100
AcDbSymbolTableRecord
100
AcDbBlockTableRecord
  2
*Paper_Space
340
1E
  0
BLOCK_RECORD
  5
23
330
1
100
AcDbSymbolTableRecord
100
AcDbBlockTableRecord
  2
*Paper_Space0
340
26
  0
BLOCK_RECORD
  5
88
330
1
100
AcDbSymbolTableRecord
100
AcDbBlockTableRecord
  2
SW_CENTERMARKSYMBOL_0
340
0
102
{BLKREFS
331
93
102
}
  0
ENDTAB
  0
ENDSEC
  0
SECTION
  2
BLOCKS
  0
BLOCK
  5
20
330
1F
100
AcDbEntity
  8
0
100
AcDbBlockBegin
  2
*Model_Space
 70
     0
 10
0.0
 20
0.0
 30
0.0
  3
*Model_Space
  1

  0
ENDBLK
  5
21
330
1F
100
AcDbEntity
  8
0
100
AcDbBlockEnd
  0
BLOCK
  5
1C
330
1B
100
AcDbEntity
 67
     1
  8
0
100
AcDbBlockBegin
  2
*Paper_Space
 70
     0
 10
0.0
 20
0.0
 30
0.0
  3
*Paper_Space
  1

  0
ENDBLK
  5
1D
330
1B
100
AcDbEntity
 67
     1
  8
0
100
AcDbBlockEnd
  0
BLOCK
  5
24
330
23
100
AcDbEntity
  8
0
100
AcDbBlockBegin
  2
*Paper_Space0
 70
     0
 10
0.0
 20
0.0
 30
0.0
  3
*Paper_Space0
  1

  0
ENDBLK
  5
25
330
23
100
AcDbEntity
  8
0
100
AcDbBlockEnd
  0
BLOCK
  5
89
330
88
100
AcDbEntity
  8
0
100
AcDbBlockBegin
  2
SW_CENTERMARKSYMBOL_0
 70
     0
 10
0.0
 20
0.0
 30
0.0
  3
SW_CENTERMARKSYMBOL_0
  1

  0
LINE
  5
8B
330
88
100
AcDbEntity
  8
FORMAT
 62
     0
100
AcDbLine
 10
0.0
 20
0.0
 30
0.0
 11
0.0
 21
2.5
 31
0.0
  0
LINE
  5
8C
330
88
100
AcDbEntity
  8
FORMAT
 62
     0
100
AcDbLine
 10
0.0
 20
0.0
 30
0.0
 11
-2.5
 21
0.0
 31
0.0
  0
LINE
  5
8D
330
88
100
AcDbEntity
  8
FORMAT
 62
     0
100
AcDbLine
 10
0.0
 20
0.0
 30
0.0
 11
0.0
 21
-2.5
 31
0.0
  0
LINE
  5
8E
330
88
100
AcDbEntity
  8
FORMAT
 62
     0
100
AcDbLine
 10
0.0
 20
0.0
 30
0.0
 11
2.5
 21
0.0
 31
0.0
  0
LINE
  5
8F
330
88
100
AcDbEntity
  8
FORMAT
 62
     0
100
AcDbLine
 10
0.0
 20
5.0
 30
0.0
 11
0.0
 21
202.5
 31
0.0
  0
LINE
  5
90
330
88
100
AcDbEntity
  8
FORMAT
 62
     0
100
AcDbLine
 10
-5.0
 20
0.0
 30
0.0
 11
-202.5
 21
0.0
 31
0.0
  0
LINE
  5
91
330
88
100
AcDbEntity
  8
FORMAT
 62
     0
100
AcDbLine
 10
0.0
 20
-5.0
 30
0.0
 11
0.0
 21
-202.5
 31
0.0
  0
LINE
  5
92
330
88
100
AcDbEntity
  8
FORMAT
 62
     0
100
AcDbLine
 10
5.0
 20
0.0
 30
0.0
 11
202.5
 21
0.0
 31
0.0
  0
ENDBLK
  5
8A
330
88
100
AcDbEntity
  8
0
100
AcDbBlockEnd
  0
ENDSEC
  0
SECTION
  2
ENTITIES
  0
CIRCLE
  5
83
330
1F
100
AcDbEntity
  8
0
  6
Continuous
 62
     7
370
    25
100
AcDbCircle
 10
130.6810329512
 20
112.0420513222
 30
0.0
 40
200.0
  0
CIRCLE
  5
84
330
1F
100
AcDbEntity
  8
0
  6
Continuous
 62
     7
370
    25
100
AcDbCircle
 10
130.6810329512
 20
112.0420513222
 30
0.0
 40
176.3
  0
CIRCLE
  5
85
330
1F
100
AcDbEntity
  8
0
  6
Continuous
 62
     7
370
    25
100
AcDbCircle
 10
130.6810329512
 20
112.0420513222
 30
0.0
 40
175.9086062194206
  0
CIRCLE
  5
86
330
1F
100
AcDbEntity
  8
0
  6
Continuous
 62
     7
370
    25
100
AcDbCircle
 10
130.6810329512
 20
112.0420513222
 30
0.0
 40
139.1913937805795
  0
CIRCLE
  5
87
330
1F
100
AcDbEntity
  8
0
  6
Continuous
 62
     7
370
    25
100
AcDbCircle
 10
130.6810329512
 20
112.0420513222
 30
0.0
 40
138.8
  0
INSERT
  5
93
330
1F
100
AcDbEntity
  8
FORMAT
 62
     7
100
AcDbBlockReference
  2
SW_CENTERMARKSYMBOL_0
 10
130.6810329512
 20
112.0420513222
 30
0.0
  0
ARC
  5
94
330
1F
100
AcDbEntity
  8
0
  6
Continuous
 62
     7
370
    25
100
AcDbCircle
 10
-539.3085223297
 20
310.0420513222
 30
0.0
 40
2.000000000000057
100
AcDbArc
 50
67.1790274906
 51
90.0
  0
ARC
  5
95
330
1F
100
AcDbEntity
  8
0
  6
Continuous
 62
     7
370
    25
100
AcDbCircle
 10
-539.3085223297
 20
-85.9579486778
 30
0.0
 40
2.000000000000057
100
AcDbArc
 50
270.0
 51
292.8209725094
  0
LINE
  5
96
330
1F
100
AcDbEntity
  8
0
  6
Continuous
 62
     7
370
    25
100
AcDbLine
 10
-539.3085240651
 20
312.0420543025
 30
0.0
 11
-717.9048753608
 21
312.0420543025
 31
0.0
  0
LINE
  5
97
330
1F
100
AcDbEntity
  8
0
  6
Continuous
 62
     7
370
    25
100
AcDbLine
 10
-717.9048753608
 20
-87.957951658
 30
0.0
 11
-539.3085240651
 21
-87.957951658
 31
0.0
  0
LINE
  5
98
330
1F
100
AcDbEntity
  8
0
  6
Continuous
 62
     7
370
    25
100
AcDbLine
 10
-538.5328180421
 20
-87.8013851573
 30
0.0
 11
-438.2769263614
 21
-45.6144990852
 31
0.0
  0
LINE
  5
99
330
1F
100
AcDbEntity
  8
0
  6
Continuous
 62
     7
370
    25
100
AcDbLine
 10
-438.2769263614
 20
269.6986017296
 30
0.0
 11
-538.5328180421
 21
311.8854878018
 31
0.0
  0
ARC
  5
9A
330
1F
100
AcDbEntity
  8
0
  6
Continuous
 62
     7
370
    25
100
AcDbCircle
 10
-437.5012189814
 20
271.5420513222
 30
0.0
 40
2.000000000000006
100
AcDbArc
 50
247.1790274907
 51
270.0
  0
ARC
  5
9B
330
1F
100
AcDbEntity
  8
0
  6
Continuous
 62
     7
370
    25
100
AcDbCircle
 10
-437.5012189814
 20
-47.4579486778
 30
0.0
 40
2.000000000000007
100
AcDbArc
 50
90.0
 51
112.8209725094
  0
LINE
  5
9C
330
1F
100
AcDbEntity
  8
0
  6
Continuous
 62
     7
370
    25
100
AcDbLine
 10
-287.9048682083
 20
269.5420501301
 30
0.0
 11
-437.5012203384
 21
269.5420501301
 31
0.0
  0
LINE
  5
9D
330
1F
100
AcDbEntity
  8
0
  6
Continuous
 62
     7
370
    25
100
AcDbLine
 10
-437.5012203384
 20
-45.4579474857
 30
0.0
 11
-287.9048682083
 21
-45.4579474857
 31
0.0
  0
LINE
  5
9E
330
1F
100
AcDbEntity
  8
0
  6
Continuous
 62
     7
370
    25
100
AcDbLine
 10
-717.9048753608
 20
312.0420543025
 30
0.0
 11
-717.9048753608
 21
-87.957951658
 31
0.0
  0
LINE
  5
9F
330
1F
100
AcDbEntity
  8
0
  6
Continuous
 62
     7
370
    25
100
AcDbLine
 10
-287.9048682083
 20
269.5420501301
 30
0.0
 11
-287.9048682083
 21
-45.4579474857
 31
0.0
  0
LINE
  5
A0
330
1F
100
AcDbEntity
  8
0
  6
Continuous
 62
     1
370
    25
100
AcDbLine
 10
-538.5328180421
 20
311.8854878018
 30
0.0
 11
-538.5328180421
 21
-87.8013851573
 31
0.0
  0
LINE
  5
A1
330
1F
100
AcDbEntity
  8
0
  6
Continuous
 62
     1
370
    25
100
AcDbLine
 10
-539.3085240651
 20
312.0420543025
 30
0.0
 11
-539.3085240651
 21
-87.957951658
 31
0.0
  0
LINE
  5
A2
330
1F
100
AcDbEntity
  8
0
  6
Continuous
 62
     1
370
    25
100
AcDbLine
 10
-438.2769263614
 20
269.6986017296
 30
0.0
 11
-438.2769263614
 21
-45.6144990852
 31
0.0
  0
LINE
  5
A3
330
1F
100
AcDbEntity
  8
0
  6
Continuous
 62
     1
370
    25
100
AcDbLine
 10
-437.5012203384
 20
269.5420501301
 30
0.0
 11
-437.5012203384
 21
-45.4579474857
 31
0.0
  0
ARC
  5
A4
330
1F
100
AcDbEntity
  8
0
  6
Continuous
 62
     7
370
    25
100
AcDbCircle
 10
328.6810329512
 20
707.3746754012
 30
0.0
 40
2.000000000000057
100
AcDbArc
 50
337.1790274906
 51
0.0
  0
ARC
  5
A5
330
1F
100
AcDbEntity
  8
0
  6
Continuous
 62
     7
370
    25
100
AcDbCircle
 10
-67.3189670488
 20
707.3746754012
 30
0.0
 40
2.000000000000057
100
AcDbArc
 50
180.0
 51
202.8209725094
  0
LINE
  5
A6
330
1F
100
AcDbEntity
  8
0
  6
Continuous
 62
     7
370
    25
100
AcDbLine
 10
330.6810359314
 20
707.3746771366
 30
0.0
 11
330.6810359314
 21
885.9710284323
 31
0.0
  0
LINE
  5
A7
330
1F
100
AcDbEntity
  8
0
  6
Continuous
 62
     7
370
    25
100
AcDbLine
 10
-69.3189700291
 20
885.9710284323
 30
0.0
 11
-69.3189700291
 21
707.3746771366
 31
0.0
  0
LINE
  5
A8
330
1F
100
AcDbEntity
  8
0
  6
Continuous
 62
     7
370
    25
100
AcDbLine
 10
-69.1624035284
 20
706.5989711137
 30
0.0
 11
-26.9755174562
 21
606.3430794329
 31
0.0
  0
LINE
  5
A9
330
1F
100
AcDbEntity
  8
0
  6
Continuous
 62
     7
370
    25
100
AcDbLine
 10
288.3375833586
 20
606.3430794329
 30
0.0
 11
330.5244694307
 21
706.5989711137
 31
0.0
  0
ARC
  5
AA
330
1F
100
AcDbEntity
  8
0
  6
Continuous
 62
     7
370
    25
100
AcDbCircle
 10
290.1810329512
 20
605.5673720529
 30
0.0
 40
2.000000000000006
100
AcDbArc
 50
157.1790274906
 51
180.0
  0
ARC
  5
AB
330
1F
100
AcDbEntity
  8
0
  6
Continuous
 62
     7
370
    25
100
AcDbCircle
 10
-28.8189670488
 20
605.5673720529
 30
0.0
 40
2.000000000000006
100
AcDbArc
 50
0.0
 51
22.8209725094
  0
LINE
  5
AC
330
1F
100
AcDbEntity
  8
0
  6
Continuous
 62
     7
370
    25
100
AcDbLine
 10
288.1810317591
 20
455.9710212798
 30
0.0
 11
288.1810317591
 21
605.56737341
 31
0.0
  0
LINE
  5
AD
330
1F
100
AcDbEntity
  8
0
  6
Continuous
 62
     7
370
    25
100
AcDbLine
 10
-26.8189658567
 20
605.56737341
 30
0.0
 11
-26.8189658567
 21
455.9710212798
 31
0.0
  0
LINE
  5
AE
330
1F
100
AcDbEntity
  8
0
  6
Continuous
 62
     7
370
    25
100
AcDbLine
 10
330.6810359314
 20
885.9710284323
 30
0.0
 11
-69.3189700291
 21
885.9710284323
 31
0.0
  0
LINE
  5
AF
330
1F
100
AcDbEntity
  8
0
  6
Continuous
 62
     7
370
    25
100
AcDbLine
 10
288.1810317591
 20
455.9710212798
 30
0.0
 11
-26.8189658567
 21
455.9710212798
 31
0.0
  0
LINE
  5
B0
330
1F
100
AcDbEntity
  8
0
  6
Continuous
 62
     1
370
    25
100
AcDbLine
 10
330.5244694307
 20
706.5989711137
 30
0.0
 11
-69.1624035284
 21
706.5989711137
 31
0.0
  0
LINE
  5
B1
330
1F
100
AcDbEntity
  8
0
  6
Continuous
 62
     1
370
    25
100
AcDbLine
 10
330.6810359314
 20
707.3746771366
 30
0.0
 11
-69.3189700291
 21
707.3746771366
 31
0.0
  0
LINE
  5
B2
330
1F
100
AcDbEntity
  8
0
  6
Continuous
 62
     1
370
    25
100
AcDbLine
 10
288.3375833586
 20
606.3430794329
 30
0.0
 11
-26.9755174562
 21
606.3430794329
 31
0.0
  0
LINE
  5
B3
330
1F
100
AcDbEntity
  8
0
  6
Continuous
 62
     1
370
    25
100
AcDbLine
 10
288.1810317591
 20
605.56737341
 30
0.0
 11
-26.8189658567
 21
605.56737341
 31
0.0
  0
ARC
  5
B4
330
1F
100
AcDbEntity
  8
0
  6
Continuous
 62
     7
370
    25
100
AcDbCircle
 10
858.2805140986
 20
-85.9579486778
 30
0.0
 40
2.000000000000057
100
AcDbArc
 50
247.1790274906
 51
270.0
  0
ARC
  5
B5
330
1F
100
AcDbEntity
  8
0
  6
Continuous
 62
     7
370
    25
100
AcDbCircle
 10
858.2805140986
 20
310.0420513222
 30
0.0
 40
2.000000000000057
100
AcDbArc
 50
90.0
 51
112.8209725094
  0
LINE
  5
B6
330
1F
100
AcDbEntity
  8
0
  6
Continuous
 62
     7
370
    25
100
AcDbLine
 10
858.280515834
 20
-87.957951658
 30
0.0
 11
1036.8768671297
 21
-87.957951658
 31
0.0
  0
LINE
  5
B7
330
1F
100
AcDbEntity
  8
0
  6
Continuous
 62
     7
370
    25
100
AcDbLine
 10
1036.8768671297
 20
312.0420543025
 30
0.0
 11
858.280515834
 21
312.0420543025
 31
0.0
  0
LINE
  5
B8
330
1F
100
AcDbEntity
  8
0
  6
Continuous
 62
     7
370
    25
100
AcDbLine
 10
857.504809811
 20
311.8854878018
 30
0.0
 11
757.2489181303
 21
269.6986017296
 31
0.0
  0
LINE
  5
B9
330
1F
100
AcDbEntity
  8
0
  6
Continuous
 62
     7
370
    25
100
AcDbLine
 10
757.2489181303
 20
-45.6144990852
 30
0.0
 11
857.504809811
 21
-87.8013851573
 31
0.0
  0
ARC
  5
BA
330
1F
100
AcDbEntity
  8
0
  6
Continuous
 62
     7
370
    25
100
AcDbCircle
 10
756.4732107503
 20
-47.4579486778
 30
0.0
 40
2.000000000000007
100
AcDbArc
 50
67.1790274906
 51
90.0
  0
ARC
  5
BB
330
1F
100
AcDbEntity
  8
0
  6
Continuous
 62
     7
370
    25
100
AcDbCircle
 10
756.4732107503
 20
271.5420513222
 30
0.0
 40
2.000000000000006
100
AcDbArc
 50
270.0
 51
292.8209725094
  0
LINE
  5
BC
330
1F
100
AcDbEntity
  8
0
  6
Continuous
 62
     7
370
    25
100
AcDbLine
 10
606.8768599771
 20
-45.4579474857
 30
0.0
 11
756.4732121073
 21
-45.4579474857
 31
0.0
  0
LINE
  5
BD
330
1F
100
AcDbEntity
  8
0
  6
Continuous
 62
     7
370
    25
100
AcDbLine
 10
756.4732121073
 20
269.5420501301
 30
0.0
 11
606.8768599771
 21
269.5420501301
 31
0.0
  0
LINE
  5
BE
330
1F
100
AcDbEntity
  8
0
  6
Continuous
 62
     7
370
    25
100
AcDbLine
 10
1036.8768671297
 20
112.0420513222
 30
0.0
 11
1036.8768671297
 21
312.0420543025
 31
0.0
  0
LINE
  5
BF
330
1F
100
AcDbEntity
  8
0
  6
Continuous
 62
     7
370
    25
100
AcDbLine
 10
1036.8768671297
 20
-87.957951658
 30
0.0
 11
1036.8768671297
 21
112.0420513222
 31
0.0
  0
LINE
  5
C0
330
1F
100
AcDbEntity
  8
0
  6
Continuous
 62
     7
370
    25
100
AcDbLine
 10
606.8768599771
 20
112.0420513222
 30
0.0
 11
606.8768599771
 21
269.5420501301
 31
0.0
  0
LINE
  5
C1
330
1F
100
AcDbEntity
  8
0
  6
Continuous
 62
     7
370
    25
100
AcDbLine
 10
606.8768599771
 20
-45.4579474857
 30
0.0
 11
606.8768599771
 21
112.0420513222
 31
0.0
  0
LINE
  5
C2
330
1F
100
AcDbEntity
  8
0
  6
Continuous
 62
     1
370
    25
100
AcDbLine
 10
857.504809811
 20
112.0420513222
 30
0.0
 11
857.504809811
 21
311.8854878018
 31
0.0
  0
LINE
  5
C3
330
1F
100
AcDbEntity
  8
0
  6
Continuous
 62
     1
370
    25
100
AcDbLine
 10
857.504809811
 20
-87.8013851573
 30
0.0
 11
857.504809811
 21
112.0420513222
 31
0.0
  0
LINE
  5
C4
330
1F
100
AcDbEntity
  8
0
  6
Continuous
 62
     1
370
    25
100
AcDbLine
 10
858.280515834
 20
112.0420513222
 30
0.0
 11
858.280515834
 21
312.0420543025
 31
0.0
  0
LINE
  5
C5
330
1F
100
AcDbEntity
  8
0
  6
Continuous
 62
     1
370
    25
100
AcDbLine
 10
858.280515834
 20
-87.957951658
 30
0.0
 11
858.280515834
 21
112.0420513222
 31
0.0
  0
LINE
  5
C6
330
1F
100
AcDbEntity
  8
0
  6
Continuous
 62
     1
370
    25
100
AcDbLine
 10
757.2489181303
 20
112.0420513222
 30
0.0
 11
757.2489181303
 21
269.6986017296
 31
0.0
  0
LINE
  5
C7
330
1F
100
AcDbEntity
  8
0
  6
Continuous
 62
     1
370
    25
100
AcDbLine
 10
757.2489181303
 20
-45.6144990852
 30
0.0
 11
757.2489181303
 21
112.0420513222
 31
0.0
  0
LINE
  5
C8
330
1F
100
AcDbEntity
  8
0
  6
Continuous
 62
     1
370
    25
100
AcDbLine
 10
756.4732121073
 20
112.0420513222
 30
0.0
 11
756.4732121073
 21
269.5420501301
 31
0.0
  0
LINE
  5
C9
330
1F
100
AcDbEntity
  8
0
  6
Continuous
 62
     1
370
    25
100
AcDbLine
 10
756.4732121073
 20
-45.4579474857
 30
0.0
 11
756.4732121073
 21
112.0420513222
 31
0.0
  0
ARC
  5
CA
330
1F
100
AcDbEntity
  8
0
  6
Continuous
 62
     7
370
    25
100
AcDbCircle
 10
-67.3189670488
 20
-515.5275449808
 30
0.0
 40
2.000000000000057
100
AcDbArc
 50
157.1790274906
 51
180.0
  0
ARC
  5
CB
330
1F
100
AcDbEntity
  8
0
  6
Continuous
 62
     7
370
    25
100
AcDbCircle
 10
328.6810329512
 20
-515.5275449808
 30
0.0
 40
2.000000000000057
100
AcDbArc
 50
0.0
 51
22.8209725094
  0
LINE
  5
CC
330
1F
100
AcDbEntity
  8
0
  6
Continuous
 62
     7
370
    25
100
AcDbLine
 10
-69.3189700291
 20
-515.5275467162
 30
0.0
 11
-69.3189700291
 21
-694.1238980119
 31
0.0
  0
LINE
  5
CD
330
1F
100
AcDbEntity
  8
0
  6
Continuous
 62
     7
370
    25
100
AcDbLine
 10
330.6810359314
 20
-694.1238980119
 30
0.0
 11
330.6810359314
 21
-515.5275467162
 31
0.0
  0
LINE
  5
CE
330
1F
100
AcDbEntity
  8
0
  6
Continuous
 62
     7
370
    25
100
AcDbLine
 10
330.5244694307
 20
-514.7518406933
 30
0.0
 11
288.3375833586
 21
-414.4959490125
 31
0.0
  0
LINE
  5
CF
330
1F
100
AcDbEntity
  8
0
  6
Continuous
 62
     7
370
    25
100
AcDbLine
 10
-26.9755174562
 20
-414.4959490125
 30
0.0
 11
-69.1624035284
 21
-514.7518406933
 31
0.0
  0
ARC
  5
D0
330
1F
100
AcDbEntity
  8
0
  6
Continuous
 62
     7
370
    25
100
AcDbCircle
 10
-28.8189670488
 20
-413.7202416325
 30
0.0
 40
2.000000000000006
100
AcDbArc
 50
337.1790274907
 51
0.0
  0
ARC
  5
D1
330
1F
100
AcDbEntity
  8
0
  6
Continuous
 62
     7
370
    25
100
AcDbCircle
 10
290.1810329512
 20
-413.7202416325
 30
0.0
 40
2.000000000000006
100
AcDbArc
 50
180.0
 51
202.8209725094
  0
LINE
  5
D2
330
1F
100
AcDbEntity
  8
0
  6
Continuous
 62
     7
370
    25
100
AcDbLine
 10
-26.8189658567
 20
-264.1238908594
 30
0.0
 11
-26.8189658567
 21
-413.7202429896
 31
0.0
  0
LINE
  5
D3
330
1F
100
AcDbEntity
  8
0
  6
Continuous
 62
     7
370
    25
100
AcDbLine
 10
288.1810317591
 20
-413.7202429896
 30
0.0
 11
288.1810317591
 21
-264.1238908594
 31
0.0
  0
LINE
  5
D4
330
1F
100
AcDbEntity
  8
0
  6
Continuous
 62
     7
370
    25
100
AcDbLine
 10
-69.3189700291
 20
-694.1238980119
 30
0.0
 11
330.6810359314
 21
-694.1238980119
 31
0.0
  0
LINE
  5
D5
330
1F
100
AcDbEntity
  8
0
  6
Continuous
 62
     7
370
    25
100
AcDbLine
 10
-26.8189658567
 20
-264.1238908594
 30
0.0
 11
288.1810317591
 21
-264.1238908594
 31
0.0
  0
LINE
  5
D6
330
1F
100
AcDbEntity
  8
0
  6
Continuous
 62
     1
370
    25
100
AcDbLine
 10
-69.1624035284
 20
-514.7518406933
 30
0.0
 11
330.5244694307
 21
-514.7518406933
 31
0.0
  0
LINE
  5
D7
330
1F
100
AcDbEntity
  8
0
  6
Continuous
 62
     1
370
    25
100
AcDbLine
 10
-69.3189700291
 20
-515.5275467162
 30
0.0
 11
330.6810359314
 21
-515.5275467162
 31
0.0
  0
LINE
  5
D8
330
1F
100
AcDbEntity
  8
0
  6
Continuous
 62
     1
370
    25
100
AcDbLine
 10
-26.9755174562
 20
-414.4959490125
 30
0.0
 11
288.3375833586
 21
-414.4959490125
 31
0.0
  0
LINE
  5
D9
330
1F
100
AcDbEntity
  8
0
  6
Continuous
 62
     1
370
    25
100
AcDbLine
 10
-26.8189658567
 20
-413.7202429896
 30
0.0
 11
288.1810317591
 21
-413.7202429896
 31
0.0
  0
LINE
  5
DA
330
1F
100
AcDbEntity
  8
0
  6
Continuous
 62
     7
370
    25
100
AcDbLine
 10
862.7326143779
 20
-265.1960167546
 30
0.0
 11
736.4459232815
 21
-192.2922617847
 31
0.0
  0
LINE
  5
DB
330
1F
100
AcDbEntity
  8
0
  6
Continuous
 62
     7
370
    25
100
AcDbLine
 10
536.4621827439
 20
-538.7118086827
 30
0.0
 11
662.7488738402
 21
-611.6155636526
 31
0.0
  0
SPLINE
  5
DC
330
1F
100
AcDbEntity
  8
0
  6
Continuous
 62
     7
370
    25
100
AcDbSpline
210
0.0
220
0.0
230
1.0
 70
     8
 71
     3
 72
    10
 73
     6
 74
     0
 42
0.000000001
 43
0.00000001
 40
0.0
 40
0.0
 40
0.0
 40
0.0
 40
0.2482737635250669
 40
0.8739143252661178
 40
0.9999999999999999
 40
0.9999999999999999
 40
0.9999999999999999
 40
0.9999999999999999
 10
879.4379418878758
 20
-278.7490966829899
 30
0.0
 10
879.016351424763
 20
-278.2746815290694
 30
0.0
 10
877.5323688247544
 20
-276.6047580009129
 30
0.0
 10
875.7303054650579
 20
-274.8303061517374
 30
0.0
 10
874.2956091138569
 20
-273.6151703930944
 30
0.0
 10
874.0549701036667
 20
-273.4113578818534
 30
0.0
  0
SPLINE
  5
DD
330
1F
100
AcDbEntity
  8
0
  6
Continuous
 62
     7
370
    25
100
AcDbSpline
210
0.0
220
0.0
230
1.0
 70
     8
 71
     3
 72
    10
 73
     6
 74
     0
 42
0.000000001
 43
0.00000001
 40
0.0
 40
0.0
 40
0.0
 40
0.0
 40
0.3362702105814301
 40
0.9293160081903479
 40
1.0
 40
1.0
 40
1.0
 40
1.0
 10
676.2688768828274
 20
-617.5405245053591
 30
0.0
 10
677.114961780991
 20
-617.813979392046
 30
0.0
 10
679.4532011355631
 20
-618.5696990357116
 30
0.0
 10
682.0432373658589
 20
-619.2284527296059
 30
0.0
 10
683.8146936773708
 20
-619.5378583177368
 30
0.0
 10
684.0033451518266
 20
-619.5708085068137
 30
0.0
  0
LINE
  5
DE
330
1F
100
AcDbEntity
  8
0
  6
Continuous
 62
     7
370
    25
100
AcDbLine
 10
697.6377426438
 20
-621.1226544117
 30
0.0
 11
782.3883747237
 21
-623.5428874695
 31
0.0
  0
LINE
  5
DF
330
1F
100
AcDbEntity
  8
0
  6
Continuous
 62
     7
370
    25
100
AcDbLine
 10
932.8908985144
 20
-362.8366237281
 30
0.0
 11
888.4128235187
 21
-290.6547138115
 31
0.0
  0
LINE
  5
E0
330
1F
100
AcDbEntity
  8
0
  6
Continuous
 62
     7
370
    25
100
AcDbLine
 10
1019.2535737929
 20
-404.6270835511
 30
0.0
 11
925.1768451252
 21
-350.317744098
 31
0.0
  0
LINE
  5
E1
330
1F
100
AcDbEntity
  8
0
  6
Continuous
 62
     7
370
    25
100
AcDbLine
 10
767.6896455005
 20
-623.1231413864
 30
0.0
 11
861.7663741682
 21
-677.4324808395
 31
0.0
  0
ARC
  5
E2
330
1F
100
AcDbEntity
  8
0
  6
Continuous
 62
     7
370
    25
100
AcDbCircle
 10
828.8690461935
 20
-323.7526433379
 30
0.0
 40
67.64332758667588
100
AcDbArc
 50
48.3182002593
 51
59.9590063757
  0
ARC
  5
E3
330
1F
100
AcDbEntity
  8
0
  6
Continuous
 62
     7
370
    25
100
AcDbCircle
 10
696.4841031229
 20
-553.102875031
 30
0.0
 40
67.54110174167279
100
AcDbArc
 50
240.0345930156
 51
252.3391464008
  0
LWPOLYLINE
  5
E4
330
1F
100
AcDbEntity
  8
0
  6
Continuous
 62
     7
370
    25
100
AcDbPolyline
 90
      151
 70
   128
 43
0.0
 10
495.0326946681
 20
-447.1428476325
 10
495.1567433799
 20
-440.2325999008
 10
495.5286787813
 20
-433.1912472917
 10
496.1478475961
 20
-426.0311442242
 10
497.0131540062
 20
-418.7648549634
 10
498.1230912617
 20
-411.4051232049
 10
499.475710071
 20
-403.9648599048
 10
501.068629137
 20
-396.4571265504
 10
502.8990667678
 20
-388.8950788885
 10
504.9637987295
 20
-381.2920003825
 10
507.2592109298
 20
-373.6612140031
 10
509.7812783447
 20
-366.0161156868
 10
512.5255755551
 20
-358.3701135002
 10
515.4872767468
 20
-350.7366276395
 10
518.6611978575
 20
-343.1290478489
 10
522.0417755031
 20
-335.5607090836
 10
525.6230564414
 20
-328.0449036763
 10
529.3987818652
 20
-320.5948083408
 10
533.3623241827
 20
-313.2234902494
 10
537.5067186272
 20
-305.9438948689
 10
541.8246948673
 20
-298.7687851263
 10
546.3086875437
 20
-291.7107414097
 10
550.9508257324
 20
-284.7821554839
 10
555.7429645549
 20
-277.9951879072
 10
560.6767009834
 20
-271.3617224051
 10
565.7433738404
 20
-264.8934267075
 10
570.9341006776
 20
-258.6016217526
 10
576.2397672392
 20
-252.4973607737
 10
581.6510748765
 20
-246.5913410901
 10
587.1585194752
 20
-240.8939406077
 10
592.7524494071
 20
-235.4151478614
 10
598.4230470906
 20
-230.1645604925
 10
604.1603632353
 20
-225.1514019823
 10
609.954332647
 20
-220.3844760258
 10
615.7947926667
 20
-215.8721315518
 10
621.671496342
 20
-211.6222794549
 10
627.5741328414
 20
-207.642392977
 10
633.4923475405
 20
-203.939447443
 10
639.415758485
 20
-200.5199350912
 10
645.333973184
 20
-197.3898553787
 10
651.2366096835
 20
-194.5547028165
 10
657.1133133587
 20
-192.0194572748
 10
662.9537733785
 20
-189.7885501441
 10
668.7477427901
 20
-187.8659014095
 10
674.4850589348
 20
-186.2548956983
 10
680.1556566183
 20
-184.9583503415
 10
685.7495865502
 20
-183.9785290639
 10
691.257031149
 20
-183.3171693626
 10
696.6683387863
 20
-182.9754262355
 10
701.9740053478
 20
-182.9538949937
 10
707.164732185
 20
-183.2526143087
 10
712.2314050421
 20
-183.8710540432
 10
717.1651414705
 20
-184.8081487157
 10
721.9572802931
 20
-186.0622305787
 10
726.5994184818
 20
-187.6311178362
 10
731.0834111581
 20
-189.5120538065
 10
735.4013873982
 20
-191.7017343002
 10
739.5457818427
 20
-194.196313707
 10
743.5093241602
 20
-196.9914232459
 10
747.285049584
 20
-200.0821587987
 10
750.8663305223
 20
-203.4631052476
 10
754.2469081679
 20
-207.1283121438
 10
757.4208292786
 20
-211.0713606217
 10
760.3825304703
 20
-215.2853390727
 10
763.1268276807
 20
-219.7628431436
 10
765.6488950956
 20
-224.4960244045
 10
767.9443072959
 20
-229.4765842691
 10
770.0090392576
 20
-234.6957739947
 10
771.8394768884
 20
-240.1444433525
 10
773.4323959545
 20
-245.8130315006
 10
774.7850147637
 20
-251.6915943652
 10
775.8949520193
 20
-257.7698198461
 10
776.7602584293
 20
-264.0370475915
 10
777.3794272441
 20
-270.4822735621
 10
777.7513626455
 20
-277.0941986973
 10
777.8754113574
 20
-283.8612228349
 10
777.7513626455
 20
-290.7714705667
 10
777.3794272441
 20
-297.8128231757
 10
776.7602584293
 20
-304.9729262432
 10
775.8949520193
 20
-312.239215504
 10
774.7850147637
 20
-319.5989472625
 10
773.4323959545
 20
-327.0392105626
 10
771.8394768884
 20
-334.5469439171
 10
770.0090392576
 20
-342.1089915789
 10
767.9443072959
 20
-349.7120700849
 10
765.6488950956
 20
-357.3428564644
 10
763.1268276807
 20
-364.9879547806
 10
760.3825304703
 20
-372.6339569672
 10
757.4208292786
 20
-380.2674428279
 10
754.2469081679
 20
-387.8750226185
 10
750.8663305223
 20
-395.4433613838
 10
747.285049584
 20
-402.9591667911
 10
743.5093241602
 20
-410.4092621266
 10
739.5457818427
 20
-417.780580218
 10
735.4013873982
 20
-425.0601755985
 10
731.0834111581
 20
-432.2352853411
 10
726.5994184818
 20
-439.2933290577
 10
721.9572802931
 20
-446.2219149835
 10
717.1651414705
 20
-453.0088825603
 10
712.2314050421
 20
-459.6423480623
 10
707.164732185
 20
-466.1106437599
 10
701.9740053478
 20
-472.4024487148
 10
696.6683387863
 20
-478.5067096937
 10
691.257031149
 20
-484.4127293773
 10
685.7495865502
 20
-490.1101298597
 10
680.1556566183
 20
-495.588922606
 10
674.4850589348
 20
-500.8395099749
 10
668.7477427901
 20
-505.8526684851
 10
662.9537733785
 20
-510.6195944416
 10
657.1133133587
 20
-515.1319389156
 10
651.2366096835
 20
-519.3817910125
 10
645.333973184
 20
-523.3616774904
 10
639.415758485
 20
-527.0646230244
 10
633.4923475405
 20
-530.4841353763
 10
627.5741328414
 20
-533.6142150888
 10
621.671496342
 20
-536.449367651
 10
615.7947926667
 20
-538.9846131926
 10
609.954332647
 20
-541.2155203233
 10
604.1603632353
 20
-543.1381690579
 10
598.4230470906
 20
-544.7491747691
 10
592.7524494071
 20
-546.0457201259
 10
587.1585194752
 20
-547.0255414035
 10
581.6510748765
 20
-547.6869011048
 10
576.2397672392
 20
-548.0286442319
 10
570.9341006776
 20
-548.0501754737
 10
565.7433738404
 20
-547.7514561587
 10
560.6767009834
 20
-547.1330164242
 10
555.7429645549
 20
-546.1959217517
 10
550.9508257324
 20
-544.9418398887
 10
546.3086875437
 20
-543.3729526312
 10
541.8246948673
 20
-541.4920166609
 10
537.5067186272
 20
-539.3023361672
 10
533.3623241827
 20
-536.8077567604
 10
529.3987818652
 20
-534.0126472215
 10
525.6230564414
 20
-530.9219116687
 10
522.0417755031
 20
-527.5409652198
 10
518.6611978575
 20
-523.8757583236
 10
515.4872767468
 20
-519.9327098457
 10
512.5255755551
 20
-515.7187313947
 10
509.7812783447
 20
-511.2412273238
 10
507.2592109298
 20
-506.5080460629
 10
504.9637987295
 20
-501.5274861983
 10
502.8990667678
 20
-496.3082964728
 10
501.068629137
 20
-490.8596271149
 10
499.475710071
 20
-485.1910389668
 10
498.1230912617
 20
-479.3124761022
 10
497.0131540062
 20
-473.2342506213
 10
496.1478475961
 20
-466.9670228759
 10
495.5286787813
 20
-460.5217969053
 10
495.1567433799
 20
-453.9098717701
 10
495.0326946681
 20
-447.1428476325
  0
LWPOLYLINE
  5
E5
330
1F
100
AcDbEntity
  8
0
  6
Continuous
 62
     7
370
    25
100
AcDbPolyline
 90
      142
 70
   128
 43
0.0
 10
511.791124573
 20
-437.4684119746
 10
511.9148782569
 20
-430.9841778082
 10
512.2858969643
 20
-424.3699322518
 10
512.9034325887
 20
-417.6388137526
 10
513.7662734082
 20
-410.8041797276
 10
514.8726914018
 20
-403.8796057982
 10
516.2205054704
 20
-396.8788318033
 10
517.8070287521
 20
-389.8157678778
 10
519.6291107703
 20
-382.7044305783
 10
521.6831479691
 20
-375.5589307159
 10
523.9650415678
 20
-368.393473353
 10
526.4702818534
 20
-361.2222695968
 10
529.1938744245
 20
-354.0595730951
 10
532.1304244843
 20
-346.9195887886
 10
535.2741052312
 20
-339.8164911588
 10
538.6186683948
 20
-332.7643938106
 10
542.1574653097
 20
-325.7773008048
 10
545.8834890625
 20
-318.8690701596
 10
549.7893323444
 20
-312.053432098
 10
553.867234867
 20
-305.3439008383
 10
558.1091097037
 20
-298.7538202244
 10
562.5065327532
 20
-292.2962542185
 10
567.0507690812
 20
-285.9840325307
 10
571.732799262
 20
-279.8296867431
 10
576.5433246472
 20
-273.8454351011
 10
581.4727989756
 20
-268.0431520973
 10
586.51143891
 20
-262.4343745568
 10
591.6492293055
 20
-257.0302255909
 10
596.8759758932
 20
-251.8414328536
 10
602.1813026458
 20
-246.8783178946
 10
607.5546754852
 20
-242.1506973012
 10
612.9854233564
 20
-237.6679922075
 10
618.4627672028
 20
-233.4390898923
 10
623.9758318204
 20
-229.4723856059
 10
629.5136695652
 20
-225.7757567166
 10
635.0652870247
 20
-222.3565351464
 10
640.61966181
 20
-219.2215220114
 10
646.1657662641
 20
-216.3769374339
 10
651.692588535
 20
-213.8284205435
 10
657.1891566126
 20
-211.5810399366
 10
662.644557756
 20
-209.6392581263
 10
668.0479575908
 20
-208.0069205171
 10
673.3886323784
 20
-206.6872854467
 10
678.6559795521
 20
-205.6829572663
 10
683.8395335226
 20
-204.9959258856
 10
688.929013093
 20
-204.6275759032
 10
693.9143056539
 20
-204.5786227263
 10
698.7855172326
 20
-204.8491688496
 10
703.5329751273
 20
-205.4386779994
 10
708.1472542492
 20
-206.3459720949
 10
712.6191876585
 20
-207.5692616672
 10
716.9399087121
 20
-209.1061093612
 10
721.1008299895
 20
-210.9534786031
 10
725.0937012453
 20
-213.1076697275
 10
728.91057253
 20
-215.5644386054
 10
732.5438837527
 20
-218.3188901882
 10
735.9864278024
 20
-221.3655606343
 10
739.2313452794
 20
-224.6984081827
 10
742.272219326
 20
-228.3107949114
 10
745.1030018695
 20
-232.1955658178
 10
747.7180663057
 20
-236.3450123222
 10
750.1122180353
 20
-240.7508844357
 10
752.2807260748
 20
-245.4044333493
 10
754.219270372
 20
-250.29642968
 10
755.9239944904
 20
-255.4171573919
 10
757.3915266822
 20
-260.7564442171
 10
758.6189482779
 20
-266.3036951128
 10
759.6038252972
 20
-272.0478953059
 10
760.3441873749
 20
-277.977645273
 10
760.8385909813
 20
-284.0811599851
 10
761.0860351289
 20
-290.3463308778
 10
761.0860351289
 20
-296.7607159725
 10
760.8385909813
 20
-303.3115797969
 10
760.3441873749
 20
-309.9859207626
 10
759.6038252972
 20
-316.7704745895
 10
758.6189482779
 20
-323.651789585
 10
757.3915266822
 20
-330.6161912902
 10
755.9239944904
 20
-337.6498547182
 10
754.219270372
 20
-344.7388150022
 10
752.2807260748
 20
-351.8690069372
 10
750.1122180353
 20
-359.0262619402
 10
747.7180663057
 20
-366.1963628025
 10
745.1030018695
 20
-373.3650984375
 10
742.272219326
 20
-380.5182212999
 10
739.2313452794
 20
-387.6415264708
 10
735.9864278024
 20
-394.7208759916
 10
732.5438837527
 20
-401.742223194
 10
728.91057253
 20
-408.691606623
 10
725.0937012453
 20
-415.5552412834
 10
721.1008299895
 20
-422.3195034315
 10
716.9399087121
 20
-428.9709701224
 10
712.6191876585
 20
-435.4964161595
 10
708.1472542492
 20
-441.8828901447
 10
703.5329751273
 20
-448.1177175145
 10
698.7855172326
 20
-454.188524877
 10
693.9143056539
 20
-460.0832521749
 10
688.929013093
 20
-465.7901952712
 10
683.8395335226
 20
-471.2980333226
 10
678.6559795521
 20
-476.5958059661
 10
673.3886323784
 20
-481.6730273829
 10
668.0479575908
 20
-486.5196041708
 10
662.644557756
 20
-491.1258992179
 10
657.1891566126
 20
-495.4827894967
 10
651.692588535
 20
-499.5816113096
 10
646.1657662641
 20
-503.4142275869
 10
640.61966181
 20
-506.9730389119
 10
635.0652870247
 20
-510.2509704008
 10
629.5136695652
 20
-513.2415099136
 10
623.9758318204
 20
-515.9387323876
 10
618.4627672028
 20
-518.3372770205
 10
612.9854233564
 20
-520.4323813001
 10
607.5546754852
 20
-522.2198842333
 10
602.1813026458
 20
-523.6962278653
 10
596.8759758932
 20
-524.8585127919
 10
591.6492293055
 20
-525.7043932131
 10
586.51143891
 20
-526.2322107724
 10
581.4727989756
 20
-526.4409230714
 10
576.5433246472
 20
-526.3300899813
 10
571.732799262
 20
-525.8999527264
 10
567.0507690812
 20
-525.1513639208
 10
562.5065327532
 20
-524.0858058189
 10
558.1091097037
 20
-522.7053963956
 10
553.867234867
 20
-521.0128802206
 10
549.7893323444
 20
-519.0115949957
 10
545.8834890625
 20
-516.705547598
 10
542.1574653097
 20
-514.0992924077
 10
538.6186683948
 20
-511.198007351
 10
535.2741052312
 20
-508.0074604361
 10
532.1304244843
 20
-504.533979338
 10
529.1938744245
 20
-500.7844635625
 10
526.4702818534
 20
-496.7663601088
 10
523.9650415678
 20
-492.487645218
 10
521.6831479691
 20
-487.9568061246
 10
519.6291107703
 20
-483.1828471325
 10
517.8070287521
 20
-478.1752409519
 10
516.2205054704
 20
-472.9439378174
 10
514.8726914018
 20
-467.4993168224
 10
513.7662734082
 20
-461.8521859173
 10
512.9034325887
 20
-456.0137666974
 10
512.2858969643
 20
-449.9956396537
 10
511.9148782569
 20
-443.8097631788
 10
511.791124573
 20
-437.4684119746
  0
ARC
  5
E6
330
1F
100
AcDbEntity
  8
0
  6
Continuous
 62
     7
370
    25
100
AcDbCircle
 10
812.761145518
 20
-338.0233686585
 30
0.0
 40
89.23263048367046
100
AcDbArc
 50
16.6880671181
 51
41.4893477409
  0
ARC
  5
E7
330
1F
100
AcDbEntity
  8
0
  6
Continuous
 62
     7
370
    25
100
AcDbCircle
 10
700.8070956358
 20
-529.882598984
 30
0.0
 40
91.24984887474922
100
AcDbArc
 50
259.5225969732
 51
284.2326412361
  0
ARC
  5
E8
330
1F
100
AcDbEntity
  8
0
  6
Continuous
 62
     7
370
    25
100
AcDbCircle
 10
867.4300565227
 20
-402.7047143598
 30
0.0
 40
76.64585106114731
100
AcDbArc
 50
17.9980154934
 51
31.3429712392
  0
ARC
  5
E9
330
1F
100
AcDbEntity
  8
0
  6
Continuous
 62
     7
370
    25
100
AcDbCircle
 10
784.7078877507
 20
-557.9516940131
 30
0.0
 40
65.66134041520873
100
AcDbArc
 50
255.6975962658
 51
279.8404411015
  0
LWPOLYLINE
  5
EA
330
1F
100
AcDbEntity
  8
0
  6
Continuous
 62
     7
370
    25
100
AcDbPolyline
 90
       69
 70
   128
 43
0.0
 10
1019.2535737929
 20
-404.6270835511
 10
1019.7236375943
 20
-404.901703432
 10
1023.3321559334
 20
-407.2391695922
 10
1026.7558656102
 20
-409.8751731005
 10
1029.9871327766
 20
-412.8038333414
 10
1033.0187345165
 20
-416.018618782
 10
1035.8439115292
 20
-419.5123530601
 10
1038.4563628607
 20
-423.2772362771
 10
1040.8502617093
 20
-427.3048723759
 10
1043.0202554252
 20
-431.5862752247
 10
1044.9615181942
 20
-436.1118838313
 10
1046.6696983542
 20
-440.8716140494
 10
1048.1410026888
 20
-445.8548281681
 10
1049.372143744
 20
-451.050417037
 10
1050.360360901
 20
-456.44678638
 10
1051.1034625238
 20
-462.0318933009
 10
1051.5997838119
 20
-467.793277459
 10
1051.8482289471
 20
-473.718075712
 10
1051.8482289471
 20
-479.7930757241
 10
1051.5997838119
 20
-486.0047226245
 10
1051.1034625238
 20
-492.3391471443
 10
1050.360360901
 20
-498.7822209366
 10
1049.372143744
 20
-505.3195615228
 10
1048.1410026888
 20
-511.9365955977
 10
1046.6696983542
 20
-518.6185415426
 10
1044.9615181942
 20
-525.3504945935
 10
1043.0202554252
 20
-532.117437485
 10
1040.8502617093
 20
-538.9042617488
 10
1038.4563628607
 20
-545.6958346261
 10
1035.8439115292
 20
-552.4769899473
 10
1033.0187345165
 20
-559.2326041732
 10
1029.9871327766
 20
-565.9476024786
 10
1026.7558656102
 20
-572.6070043788
 10
1023.3321559334
 20
-579.1959389393
 10
1019.7236375943
 20
-585.6997116915
 10
1015.9383606409
 20
-592.1038076751
 10
1011.9847755164
 20
-598.3939370643
 10
1007.8717014487
 20
-604.5560594999
 10
1003.6083159141
 20
-610.576444925
 10
999.2041335638
 20
-616.4416249137
 10
994.6689851501
 20
-622.1385508453
 10
990.0129806482
 20
-627.6544752685
 10
985.2465197931
 20
-632.9771161625
 10
980.3802341273
 20
-638.0945808852
 10
975.4249790985
 20
-642.9954559074
 10
970.3918182544
 20
-647.6688159362
 10
965.2919784618
 20
-652.1042132651
 10
960.1368406869
 20
-656.2917561001
 10
954.9379070679
 20
-660.2221154014
 10
949.7067791836
 20
-663.8865009263
 10
944.4551300647
 20
-667.2767503911
 10
939.1946773581
 20
-670.3852962934
 10
933.9371597844
 20
-673.2051916702
 10
928.6943091493
 20
-675.7301627581
 10
923.4778226851
 20
-677.9545519551
 10
918.2993434586
 20
-679.8734143031
 10
913.1704223405
 20
-681.482466438
 10
908.1025087856
 20
-682.7781040796
 10
903.1069060519
 20
-683.7574522179
 10
898.1947672491
 20
-684.4183187244
 10
893.3770479237
 20
-684.7592338919
 10
888.6645034246
 20
-684.7794154528
 10
884.0676467563
 20
-684.4788537471
 10
879.5967301396
 20
-683.8581885256
 10
875.2617371095
 20
-682.9188230186
 10
871.0723403675
 20
-681.6628509278
 10
867.0378859774
 20
-680.0930655497
 10
863.1673722912
 20
-678.2129841092
 10
861.7663741682
 20
-677.4324808395
  0
LWPOLYLINE
  5
EB
330
1F
100
AcDbEntity
  8
0
  6
Continuous
 62
     1
370
    25
100
AcDbPolyline
 90
       71
 70
   128
 43
0.0
 10
873.851395557
 20
-273.2332607928
 10
877.1530216187
 20
-276.3668602175
 10
880.5335992643
 20
-280.0320671136
 10
883.707520375
 20
-283.9751155916
 10
886.6692215667
 20
-288.1890940426
 10
889.4135187771
 20
-292.6665981135
 10
891.935586192
 20
-297.3997793744
 10
894.2309983923
 20
-302.380339239
 10
896.295730354
 20
-307.5995289645
 10
898.1261679848
 20
-313.0481983224
 10
899.7190870508
 20
-318.7167864705
 10
901.0717058601
 20
-324.5953493351
 10
902.1816431156
 20
-330.673574816
 10
903.0469495257
 20
-336.9408025614
 10
903.6661183405
 20
-343.3860285319
 10
904.0380537419
 20
-349.9979536671
 10
904.1621024537
 20
-356.7649778048
 10
904.0380537419
 20
-363.6752255365
 10
903.6661183405
 20
-370.7165781456
 10
903.0469495257
 20
-377.876681213
 10
902.1816431156
 20
-385.1429704739
 10
901.0717058601
 20
-392.5027022324
 10
899.7190870508
 20
-399.9429655325
 10
898.1261679848
 20
-407.4506988869
 10
896.295730354
 20
-415.0127465488
 10
894.2309983923
 20
-422.6158250548
 10
891.935586192
 20
-430.2466114342
 10
889.4135187771
 20
-437.8917097505
 10
886.6692215667
 20
-445.5377119371
 10
883.707520375
 20
-453.1711977978
 10
880.5335992643
 20
-460.7787775884
 10
877.1530216187
 20
-468.3471163537
 10
873.5717406804
 20
-475.8629217609
 10
869.7960152566
 20
-483.3130170965
 10
865.832472939
 20
-490.6843351879
 10
861.6880784946
 20
-497.9639305684
 10
857.3701022545
 20
-505.139040311
 10
852.8861095781
 20
-512.1970840276
 10
848.2439713894
 20
-519.1256699534
 10
843.4518325669
 20
-525.9126375301
 10
838.5180961384
 20
-532.5461030322
 10
833.4514232814
 20
-539.0143987297
 10
828.2606964441
 20
-545.3062036847
 10
822.9550298826
 20
-551.4104646636
 10
817.5437222453
 20
-557.3164843471
 10
812.0362776466
 20
-563.0138848295
 10
806.4423477147
 20
-568.4926775759
 10
800.7717500312
 20
-573.7432649448
 10
795.0344338865
 20
-578.756423455
 10
789.2404644748
 20
-583.5233494115
 10
783.4000044551
 20
-588.0356938854
 10
777.5233007798
 20
-592.2855459824
 10
771.6206642804
 20
-596.2654324602
 10
765.7024495813
 20
-599.9683779942
 10
759.7790386368
 20
-603.3878903461
 10
753.8608239378
 20
-606.5179700586
 10
747.9581874383
 20
-609.3531226208
 10
742.0814837631
 20
-611.8883681625
 10
736.2410237433
 20
-614.1192752932
 10
730.4470543317
 20
-616.0419240278
 10
724.709738187
 20
-617.652929739
 10
719.0391405035
 20
-618.9494750958
 10
713.4452105716
 20
-619.9292963734
 10
707.9377659728
 20
-620.5906560747
 10
702.5264583355
 20
-620.9323992018
 10
697.220791774
 20
-620.9539304436
 10
692.0300649368
 20
-620.6552111286
 10
686.9633920797
 20
-620.0367713941
 10
682.0296556513
 20
-619.0996767216
 10
677.2375168287
 20
-617.8455948586
 10
675.9933418607
 20
-617.4606960583
  0
LWPOLYLINE
  5
EC
330
1F
100
AcDbEntity
  8
0
  6
Continuous
 62
     1
370
    25
100
AcDbPolyline
 90
       37
 70
   128
 43
0.0
 10
637.6552750738
 20
-508.7580508209
 10
637.7734337636
 20
-503.640775363
 10
638.144452471
 20
-497.0265298066
 10
638.7619880954
 20
-490.2954113075
 10
639.6248289148
 20
-483.4607772825
 10
640.7312469085
 20
-476.5362033531
 10
642.079060977
 20
-469.5354293581
 10
643.6655842588
 20
-462.4723654326
 10
645.4876662769
 20
-455.3610281331
 10
647.5417034758
 20
-448.2155282708
 10
649.8235970745
 20
-441.0500709078
 10
652.3288373601
 20
-433.8788671516
 10
655.0524299311
 20
-426.71617065
 10
657.988979991
 20
-419.5761863435
 10
661.1326607379
 20
-412.4730887136
 10
664.4772239014
 20
-405.4209913654
 10
668.0160208164
 20
-398.4338983596
 10
671.7420445691
 20
-391.5256677145
 10
675.647887851
 20
-384.7100296529
 10
679.7257903736
 20
-378.0004983931
 10
683.9676652104
 20
-371.4104177793
 10
688.3650882599
 20
-364.9528517733
 10
692.9093245879
 20
-358.6406300855
 10
697.5913547687
 20
-352.486284298
 10
702.4018801539
 20
-346.502032656
 10
707.3313544823
 20
-340.6997496522
 10
712.3699944167
 20
-335.0909721116
 10
717.5077848122
 20
-329.6868231458
 10
722.7345313999
 20
-324.4980304085
 10
728.0398581524
 20
-319.5349154494
 10
733.4132309919
 20
-314.807294856
 10
738.8439788631
 20
-310.3245897623
 10
744.3213227094
 20
-306.0956874471
 10
749.834387327
 20
-302.1289831607
 10
755.3722250719
 20
-298.4323542714
 10
760.9238425313
 20
-295.0131327012
 10
761.111388434
 20
-294.9026259534
  0
LWPOLYLINE
  5
ED
330
1F
100
AcDbEntity
  8
0
  6
Continuous
 62
     1
370
    25
100
AcDbPolyline
 90
       54
 70
   128
 43
0.0
 10
898.2355048124
 20
-312.3992345999
 10
898.5686967233
 20
-313.462970938
 10
900.1603724573
 20
-319.1271239499
 10
901.5119270586
 20
-325.0010874351
 10
902.6210003038
 20
-331.0745523372
 10
903.4856323642
 20
-337.3368704709
 10
904.1043059535
 20
-343.7770575679
 10
904.475946327
 20
-350.3838092464
 10
904.5999002085
 20
-357.1455352301
 10
904.475946327
 20
-364.0503753192
 10
904.1043059535
 20
-371.0862138395
 10
903.4856323642
 20
-378.2407062582
 10
902.6210003038
 20
-385.5013073199
 10
901.5119270586
 20
-392.8552809345
 10
900.1603724573
 20
-400.2897161468
 10
898.5686967233
 20
-407.7915788444
 10
896.7396920853
 20
-415.3477011139
 10
894.6765722405
 20
-422.9448359932
 10
892.382961818
 20
-430.5696422615
 10
889.8628647683
 20
-438.2087604825
 10
887.1207170472
 20
-445.8487765069
 10
884.1613339321
 20
-453.4762823049
 10
880.9898994855
 20
-461.0779124672
 10
877.6119665546
 20
-468.6403259538
 10
874.0334883818
 20
-476.1502486831
 10
870.2607132374
 20
-483.5945161079
 10
866.3002792499
 20
-490.9600610567
 10
862.1591301128
 20
-498.2339502282
 10
857.8445361573
 20
-505.4034450302
 10
853.3640522061
 20
-512.4559589899
 10
848.7255491831
 20
-519.3791246773
 10
843.9371561617
 20
-526.1607906582
 10
839.0072867066
 20
-532.789054957
 10
833.9445756533
 20
-539.2522893853
 10
828.7579159869
 20
-545.5391669223
 10
823.45640089
 20
-551.6386586675
 10
818.0493342793
 20
-557.5400399254
 10
812.5461939275
 20
-563.2329844991
 10
806.9566446336
 20
-568.7074962504
 10
801.2904855401
 20
-573.9539760153
 10
795.557660669
 20
-578.9632033537
 10
789.7682273119
 20
-583.7264034677
 10
783.9323389081
 20
-588.2352205833
 10
778.0602371419
 20
-592.4817346799
 10
772.1622203322
 20
-596.4585040737
 10
766.2486381644
 20
-600.1585562909
 10
760.3298640318
 20
-603.5753918683
 10
754.4162818641
 20
-606.7030162907
 10
748.5182650544
 20
-609.5359521568
 10
742.6461632881
 20
-612.0692224477
 10
736.8102748844
 20
-614.2983786613
 10
731.0208415273
 20
-616.2195160213
 10
725.2880166562
 20
-617.8292673902
 10
723.2417502825
 20
-618.3315740519
  0
LWPOLYLINE
  5
EE
330
1F
100
AcDbEntity
  8
0
  6
Continuous
 62
     1
370
    25
100
AcDbPolyline
 90
       50
 70
   128
 43
0.0
 10
940.3254129309
 20
-379.0223686356
 10
940.4461215051
 20
-379.38957099
 10
941.9188904427
 20
-384.3777373805
 10
943.1512432197
 20
-389.5784975108
 10
944.1404508277
 20
-394.9802266891
 10
944.8842900204
 20
-400.5708865793
 10
945.3811065339
 20
-406.3379955485
 10
945.6297940135
 20
-412.2686855105
 10
945.6297940135
 20
-418.3497243584
 10
945.3811065339
 20
-424.5675427726
 10
944.8842900204
 20
-430.9082638788
 10
944.1404508277
 20
-437.3577422203
 10
943.1512432197
 20
-443.9015861922
 10
941.9188904427
 20
-450.5251905528
 10
940.4461215051
 20
-457.2137797641
 10
938.7362449344
 20
-463.9524216874
 10
936.7930539471
 20
-470.7260929737
 10
934.6209002052
 20
-477.5196638615
 10
932.2246200597
 20
-484.3179894259
 10
929.609576697
 20
-491.1058852469
 10
926.7815863822
 20
-497.8682156171
 10
923.7469711426
 20
-504.589887462
 10
920.5124955473
 20
-511.2559050884
 10
917.0853825126
 20
-517.8513914778
 10
913.473276423
 20
-524.3616278279
 10
909.6842378634
 20
-530.772087012
 10
905.7267172768
 20
-537.0684731206
 10
901.6095549648
 20
-543.2367275453
 10
897.341933672
 20
-549.2630867694
 10
892.9333733178
 20
-555.1341036605
 10
888.3937151912
 20
-560.8366870129
 10
883.7330850728
 20
-566.3581045859
 10
878.9618879656
 20
-571.6860226479
 10
874.0907633148
 20
-576.8085804971
 10
869.1305850072
 20
-581.7143296244
 10
864.0924192249
 20
-586.3923310491
 10
858.9875112737
 20
-590.8321385872
 10
853.8272473883
 20
-595.023845236
 10
848.6231468292
 20
-598.9581120713
 10
843.3868190774
 20
-602.6261442883
 10
838.1299493469
 20
-606.0197604028
 10
832.8642679615
 20
-609.1313977615
 10
827.6015243432
 20
-611.9540910564
 10
822.3534613284
 20
-614.4815723234
 10
817.1317908018
 20
-616.7081755019
 10
811.9481617572
 20
-618.6289400448
 10
806.8141435047
 20
-620.2395962781
 10
801.7411934014
 20
-621.5365231922
 10
796.7406252421
 20
-622.5168396943
 10
795.929738316
 20
-622.6469928764
  0
LWPOLYLINE
  5
EF
330
1F
100
AcDbEntity
  8
0
  6
Continuous
 62
     1
370
    25
100
AcDbPolyline
 90
       36
 70
   128
 43
0.0
 10
639.324456228
 20
-507.7629695837
 10
639.422953413
 20
-504.2403213663
 10
639.7984502231
 20
-497.5922987499
 10
640.4234353029
 20
-490.8261814056
 10
641.2966442471
 20
-483.955593668
 10
642.4163279613
 20
-476.9943727557
 10
643.7802315893
 20
-469.9565322673
 10
645.3855945124
 20
-462.8562530557
 10
647.2292030334
 20
-455.70782848
 10
649.3073376929
 20
-448.5256552744
 10
651.6158048795
 20
-441.3242031336
 10
654.1499684399
 20
-434.117966045
 10
656.9047180687
 20
-426.9214592449
 10
659.8745009187
 20
-419.7491796768
 10
663.0533532106
 20
-412.6155634086
 10
666.4348475502
 20
-405.5349856278
 10
670.0121982948
 20
-398.5217058976
 10
673.7781877967
 20
-391.5898377322
 10
677.7252401597
 20
-384.7533425193
 10
681.8454001663
 20
-378.0259991002
 10
686.1303648873
 20
-371.4213490187
 10
690.5715205605
 20
-364.9526995674
 10
695.1599109806
 20
-358.633056863
 10
699.8863007195
 20
-352.4751745226
 10
704.7411698576
 20
-346.4914350307
 10
709.7147403263
 20
-340.6938953694
 10
714.7969969806
 20
-335.0942383507
 10
719.9777060388
 20
-329.7037254698
 10
725.2464335217
 20
-324.5332227624
 10
730.5925715945
 20
-319.5931490956
 10
736.0053491032
 20
-314.8934335832
 10
741.473865819
 20
-310.4435566537
 10
746.9871135119
 20
-306.2524770479
 10
752.5339838533
 20
-302.328627257
 10
758.1033105624
 20
-298.6799135264
 10
761.0843956824
 20
-296.8457033331
  0
LWPOLYLINE
  5
F0
330
1F
100
AcDbEntity
  8
0
  6
Continuous
 62
     1
370
    25
100
AcDbPolyline
 90
       57
 70
   128
 43
0.0
 10
930.8319801836
 20
-359.4952658241
 10
932.6757678287
 20
-362.211398588
 10
935.0696666773
 20
-366.2390346868
 10
937.2396603932
 20
-370.5204375356
 10
939.1809231621
 20
-375.0460461422
 10
940.8891033222
 20
-379.8057763603
 10
942.3604076568
 20
-384.788990479
 10
943.591548712
 20
-389.984579348
 10
944.579765869
 20
-395.3809486909
 10
945.3228674918
 20
-400.9660556118
 10
945.8191887799
 20
-406.72743977
 10
946.0676339151
 20
-412.6522380229
 10
946.0676339151
 20
-418.727238035
 10
945.8191887799
 20
-424.9388849354
 10
945.3228674918
 20
-431.2733094552
 10
944.579765869
 20
-437.7163832475
 10
943.591548712
 20
-444.2537238337
 10
942.3604076568
 20
-450.8707579086
 10
940.8891033222
 20
-457.5527038536
 10
939.1809231621
 20
-464.2846569044
 10
937.2396603932
 20
-471.051599796
 10
935.0696666773
 20
-477.8384240597
 10
932.6757678287
 20
-484.6299969371
 10
930.0633164972
 20
-491.4111522583
 10
927.2381394845
 20
-498.1667664841
 10
924.2065377446
 20
-504.8817647895
 10
920.9752705781
 20
-511.5411666898
 10
917.5515609014
 20
-518.1301012503
 10
913.9430425623
 20
-524.6338740024
 10
910.1577656089
 20
-531.037969986
 10
906.2041804844
 20
-537.3280993752
 10
902.0911064167
 20
-543.4902218108
 10
897.8277208821
 20
-549.5106072359
 10
893.4235385318
 20
-555.3757872246
 10
888.888390118
 20
-561.0727131562
 10
884.2323856162
 20
-566.5886375794
 10
879.4659247611
 20
-571.9112784734
 10
874.5996390953
 20
-577.0287431962
 10
869.6443840665
 20
-581.9296182183
 10
864.6112232224
 20
-586.6029782472
 10
859.5113834298
 20
-591.038375576
 10
854.3562456548
 20
-595.2259184111
 10
849.1573120359
 20
-599.1562777124
 10
843.9261841516
 20
-602.8206632373
 10
838.6745350327
 20
-606.2109127021
 10
833.4140823261
 20
-609.3194586043
 10
828.1565647524
 20
-612.1393539812
 10
822.9137141173
 20
-614.664325069
 10
817.6972276531
 20
-616.888714266
 10
812.5187484266
 20
-618.807576614
 10
807.3898273085
 20
-620.4166287489
 10
802.3219137536
 20
-621.7122663906
 10
797.3263110199
 20
-622.6916145288
 10
792.4141722171
 20
-623.3524810353
 10
787.5964528917
 20
-623.6933962028
 10
782.8839083926
 20
-623.7135777637
 10
778.4652064529
 20
-623.430858025
  0
ENDSEC
  0
SECTION
  2
OBJECTS
  0
DICTIONARY
  5
C
330
0
100
AcDbDictionary
281
     1
  3
ACAD_GROUP
350
D
  3
ACAD_LAYOUT
350
1A
  3
ACAD_MLINESTYLE
350
17
  3
ACAD_PLOTSETTINGS
350
19
  3
ACAD_PLOTSTYLENAME
350
E
  3
ACAD_SCALELIST
350
47
  0
DICTIONARY
  5
D
102
{ACAD_REACTORS
330
C
102
}
330
C
100
AcDbDictionary
281
     1
  0
DICTIONARY
  5
1A
102
{ACAD_REACTORS
330
C
102
}
330
C
100
AcDbDictionary
281
     1
  3
Layout1
350
1E
  3
Layout2
350
26
  3
Model
350
22
  0
DICTIONARY
  5
17
102
{ACAD_REACTORS
330
C
102
}
330
C
100
AcDbDictionary
281
     1
  3
Standard
350
18
  0
DICTIONARY
  5
19
102
{ACAD_REACTORS
330
C
102
}
330
C
100
AcDbDictionary
281
     1
  0
ACDBDICTIONARYWDFLT
  5
E
102
{ACAD_REACTORS
330
C
102
}
330
C
100
AcDbDictionary
281
     1
  3
Normal
350
F
100
AcDbDictionaryWithDefault
340
F
  0
DICTIONARY
  5
47
102
{ACAD_REACTORS
330
C
102
}
330
C
100
AcDbDictionary
281
     1
  3
A0
350
48
  3
A1
350
49
  3
A2
350
4A
  3
A3
350
4B
  3
A4
350
4C
  3
A5
350
4D
  3
A6
350
4E
  3
A7
350
4F
  3
A8
350
50
  3
A9
350
51
  3
B0
350
52
  3
B1
350
53
  3
B2
350
54
  3
B3
350
55
  3
B4
350
56
  3
B5
350
57
  3
B6
350
58
  3
B7
350
59
  3
B8
350
5A
  3
B9
350
5B
  3
C0
350
5C
  3
C1
350
5D
  3
C2
350
5E
  3
C3
350
5F
  3
C4
350
60
  3
C5
350
61
  3
C6
350
62
  3
C7
350
63
  3
C8
350
64
  3
C9
350
65
  3
D0
350
66
  3
D1
350
67
  3
D2
350
68
  0
LAYOUT
  5
1E
102
{ACAD_REACTORS
330
1A
102
}
330
1A
100
AcDbPlotSettings
  1

  2
none_device
  4

  6

 40
0.0
 41
0.0
 42
0.0
 43
0.0
 44
0.0
 45
0.0
 46
0.0
 47
0.0
 48
0.0
 49
0.0
140
0.0
141
0.0
142
1.0
143
1.0
 70
   688
 72
     1
 73
     0
 74
     5
  7

 75
    16
147
1.0
148
0.0
149
0.0
100
AcDbLayout
  1
Layout1
 70
     1
 71
     1
 10
0.0
 20
0.0
 11
420.0
 21
297.0
 12
0.0
 22
0.0
 32
0.0
 14
1.0000000000E+20
 24
1.0000000000E+20
 34
1.0000000000E+20
 15
-1.0000000000E+20
 25
-1.0000000000E+20
 35
-1.0000000000E+20
146
0.0
 13
0.0
 23
0.0
 33
0.0
 16
1.0
 26
0.0
 36
0.0
 17
0.0
 27
1.0
 37
0.0
 76
     0
330
1B
  0
LAYOUT
  5
26
102
{ACAD_REACTORS
330
1A
102
}
330
1A
100
AcDbPlotSettings
  1

  2
none_device
  4

  6

 40
0.0
 41
0.0
 42
0.0
 43
0.0
 44
0.0
 45
0.0
 46
0.0
 47
0.0
 48
0.0
 49
0.0
140
0.0
141
0.0
142
1.0
143
1.0
 70
   688
 72
     1
 73
     0
 74
     5
  7

 75
    16
147
1.0
148
0.0
149
0.0
100
AcDbLayout
  1
Layout2
 70
     1
 71
     2
 10
0.0
 20
0.0
 11
0.0
 21
0.0
 12
0.0
 22
0.0
 32
0.0
 14
0.0
 24
0.0
 34
0.0
 15
0.0
 25
0.0
 35
0.0
146
0.0
 13
0.0
 23
0.0
 33
0.0
 16
1.0
 26
0.0
 36
0.0
 17
0.0
 27
1.0
 37
0.0
 76
     0
330
23
  0
LAYOUT
  5
22
102
{ACAD_REACTORS
330
1A
102
}
330
1A
100
AcDbPlotSettings
  1

  2
none_device
  4
Letter_(8.50_x_11.00_Inches)
  6

 40
6.35
 41
6.35
 42
6.35000508
 43
6.35000508
 44
215.9
 45
279.4
 46
0.0
 47
0.0
 48
0.0
 49
0.0
140
0.0
141
0.0
142
1.0
143
1.0
 70
  1712
 72
     1
 73
     0
 74
     0
  7

 75
     0
147
1.0
148
0.0
149
0.0
100
AcDbLayout
  1
Model
 70
     1
 71
     0
 10
0.0
 20
0.0
 11
279.4
 21
215.9
 12
0.0
 22
0.0
 32
0.0
 14
0.0
 24
0.0
 34
0.0
 15
279.4
 25
215.9
 35
0.0
146
0.0
 13
0.0
 23
0.0
 33
0.0
 16
1.0
 26
0.0
 36
0.0
 17
0.0
 27
1.0
 37
0.0
 76
     0
330
1F
331
29
  0
MLINESTYLE
  5
18
102
{ACAD_REACTORS
330
17
102
}
330
17
100
AcDbMlineStyle
  2
Standard
 70
     0
  3

 62
   256
 51
90.0
 52
90.0
 71
     2
 49
0.5
 62
   256
  6
BYLAYER
 49
-0.5
 62
   256
  6
BYLAYER
  0
ACDBPLACEHOLDER
  5
F
102
{ACAD_REACTORS
330
E
102
}
330
E
  0
SCALE
  5
48
102
{ACAD_REACTORS
330
47
102
}
330
47
100
AcDbScale
 70
     0
300
1:1
140
1.0
141
1.0
290
     1
  0
SCALE
  5
49
102
{ACAD_REACTORS
330
47
102
}
330
47
100
AcDbScale
 70
     0
300
1:2
140
1.0
141
2.0
290
     0
  0
SCALE
  5
4A
102
{ACAD_REACTORS
330
47
102
}
330
47
100
AcDbScale
 70
     0
300
1:4
140
1.0
141
4.0
290
     0
  0
SCALE
  5
4B
102
{ACAD_REACTORS
330
47
102
}
330
47
100
AcDbScale
 70
     0
300
1:5
140
1.0
141
5.0
290
     0
  0
SCALE
  5
4C
102
{ACAD_REACTORS
330
47
102
}
330
47
100
AcDbScale
 70
     0
300
1:8
140
1.0
141
8.0
290
     0
  0
SCALE
  5
4D
102
{ACAD_REACTORS
330
47
102
}
330
47
100
AcDbScale
 70
     0
300
1:10
140
1.0
141
10.0
290
     0
  0
SCALE
  5
4E
102
{ACAD_REACTORS
330
47
102
}
330
47
100
AcDbScale
 70
     0
300
1:16
140
1.0
141
16.0
290
     0
  0
SCALE
  5
4F
102
{ACAD_REACTORS
330
47
102
}
330
47
100
AcDbScale
 70
     0
300
1:20
140
1.0
141
20.0
290
     0
  0
SCALE
  5
50
102
{ACAD_REACTORS
330
47
102
}
330
47
100
AcDbScale
 70
     0
300
1:30
140
1.0
141
30.0
290
     0
  0
SCALE
  5
51
102
{ACAD_REACTORS
330
47
102
}
330
47
100
AcDbScale
 70
     0
300
1:40
140
1.0
141
40.0
290
     0
  0
SCALE
  5
52
102
{ACAD_REACTORS
330
47
102
}
330
47
100
AcDbScale
 70
     0
300
1:50
140
1.0
141
50.0
290
     0
  0
SCALE
  5
53
102
{ACAD_REACTORS
330
47
102
}
330
47
100
AcDbScale
 70
     0
300
1:100
140
1.0
141
100.0
290
     0
  0
SCALE
  5
54
102
{ACAD_REACTORS
330
47
102
}
330
47
100
AcDbScale
 70
     0
300
2:1
140
2.0
141
1.0
290
     0
  0
SCALE
  5
55
102
{ACAD_REACTORS
330
47
102
}
330
47
100
AcDbScale
 70
     0
300
4:1
140
4.0
141
1.0
290
     0
  0
SCALE
  5
56
102
{ACAD_REACTORS
330
47
102
}
330
47
100
AcDbScale
 70
     0
300
8:1
140
8.0
141
1.0
290
     0
  0
SCALE
  5
57
102
{ACAD_REACTORS
330
47
102
}
330
47
100
AcDbScale
 70
     0
300
10:1
140
10.0
141
1.0
290
     0
  0
SCALE
  5
58
102
{ACAD_REACTORS
330
47
102
}
330
47
100
AcDbScale
 70
     0
300
100:1
140
100.0
141
1.0
290
     0
  0
SCALE
  5
59
102
{ACAD_REACTORS
330
47
102
}
330
47
100
AcDbScale
 70
     0
300
1/128" = 1'-0"
140
0.0078125
141
12.0
290
     0
  0
SCALE
  5
5A
102
{ACAD_REACTORS
330
47
102
}
330
47
100
AcDbScale
 70
     0
300
1/64" = 1'-0"
140
0.015625
141
12.0
290
     0
  0
SCALE
  5
5B
102
{ACAD_REACTORS
330
47
102
}
330
47
100
AcDbScale
 70
     0
300
1/32" = 1'-0"
140
0.03125
141
12.0
290
     0
  0
SCALE
  5
5C
102
{ACAD_REACTORS
330
47
102
}
330
47
100
AcDbScale
 70
     0
300
1/16" = 1'-0"
140
0.0625
141
12.0
290
     0
  0
SCALE
  5
5D
102
{ACAD_REACTORS
330
47
102
}
330
47
100
AcDbScale
 70
     0
300
3/32" = 1'-0"
140
0.09375
141
12.0
290
     0
  0
SCALE
  5
5E
102
{ACAD_REACTORS
330
47
102
}
330
47
100
AcDbScale
 70
     0
300
1/8" = 1'-0"
140
0.125
141
12.0
290
     0
  0
SCALE
  5
5F
102
{ACAD_REACTORS
330
47
102
}
330
47
100
AcDbScale
 70
     0
300
3/16" = 1'-0"
140
0.1875
141
12.0
290
     0
  0
SCALE
  5
60
102
{ACAD_REACTORS
330
47
102
}
330
47
100
AcDbScale
 70
     0
300
1/4" = 1'-0"
140
0.25
141
12.0
290
     0
  0
SCALE
  5
61
102
{ACAD_REACTORS
330
47
102
}
330
47
100
AcDbScale
 70
     0
300
3/8" = 1'-0"
140
0.375
141
12.0
290
     0
  0
SCALE
  5
62
102
{ACAD_REACTORS
330
47
102
}
330
47
100
AcDbScale
 70
     0
300
1/2" = 1'-0"
140
0.5
141
12.0
290
     0
  0
SCALE
  5
63
102
{ACAD_REACTORS
330
47
102
}
330
47
100
AcDbScale
 70
     0
300
3/4" = 1'-0"
140
0.75
141
12.0
290
     0
  0
SCALE
  5
64
102
{ACAD_REACTORS
330
47
102
}
330
47
100
AcDbScale
 70
     0
300
1" = 1'-0"
140
1.0
141
12.0
290
     0
  0
SCALE
  5
65
102
{ACAD_REACTORS
330
47
102
}
330
47
100
AcDbScale
 70
     0
300
1-1/2" = 1'-0"
140
1.5
141
12.0
290
     0
  0
SCALE
  5
66
102
{ACAD_REACTORS
330
47
102
}
330
47
100
AcDbScale
 70
     0
300
3" = 1'-0"
140
3.0
141
12.0
290
     0
  0
SCALE
  5
67
102
{ACAD_REACTORS
330
47
102
}
330
47
100
AcDbScale
 70
     0
300
6" = 1'-0"
140
6.0
141
12.0
290
     0
  0
SCALE
  5
68
102
{ACAD_REACTORS
330
47
102
}
330
47
100
AcDbScale
 70
     0
300
1'-0" = 1'-0"
140
12.0
141
12.0
290
     0
  0
ENDSEC
  0
EOF
